Blogging

Gautam Mahaveer

Created page for all types of questions and answers, available for your information.

सभी प्रकार के सवाल और जवाब के लिए बनाया गया पेज, आपकी जानकारी के लिए उपलब्ध|

For Your Question, Click here ------>.

For Your Answer, Click here ------>.

Cooking

------------------------------------------------------------------1--------------------------------------------------------------------

Question - Which vitamins are easily destroyed by cooking?

Answer - Vitamin C helps promote immunity, works as anti-oxidants and is destroyed in high temperatures and reduce power with long storage.

सवाल - खाना पकाने से कौन सा विटामिन आसानी से नष्ट हो जाता है?

उत्तर - विटामिन सी प्रतिरक्षा को बढ़ावा देने में मदद करता है, एंटी-ऑक्सीडेंट के रूप में काम करता है और उच्च तापमान में नष्ट हो जाता है और लंबे भंडारण के साथ शक्ति को कम करता है।

-----------------------------------------------------------------2 ----------------------------------------------------------------------

Question - Can you put hot food in the melamine?

Answer - If the use of melamine was to be used for food, then it should not be hurt. To damage a melamine item, food would be difficult to be so hot. Food grade melamine products are strong, lightweight, strong, and long lasting. I have a melamine dishware which is easily 40+ years old and is very well catching. However, you should never be microwave melamine, because it will be geographical sooner, which will cause it to break easily.

सवाल - क्या आप मेलामाइन में गर्म भोजन डाल सकते हैं?

उत्तर - यदि प्रश्न में मेलामाइन का उपयोग भोजन के लिए किया जाना था, तो गर्म भोजन को इसे चोट नहीं पहुंचीनी चाहिए। एक मेलामाइन आइटम को नुकसान पहुंचाने के लिए भोजन को इतना गर्म होना मुश्किल होगा। खाद्य ग्रेड मेलामाइन उत्पाद मजबूत, हल्के, मजबूत, और लंबे समय तक चलने वाले होते हैं। मेरे पास मेलामाइन डिशवेयर है जो आसानी से 40+ साल पुराना है और बहुत अच्छी तरह से पकड़ रहा है। हालांकि, आपको माइक्रोवेव मेलामाइन कभी नहीं करना चाहिए, क्योंकि इससे जल्दी ही भौगोलिक हो जाएगा, जिससे इसे आसानी से तोड़ने का कारण होगा।

-----------------------------------------------------------------3 ----------------------------------------------------------------------

Question - How can I prepare lemon rice?

Answer - If you want to eat are tired of cooking, eating and try something new and simple lemon rice would be a good choice. Here I will share the process that will help you to make lemon rice at any time.

  1. Place a pan on the cooktop whether gas hob or gas stove.

  2. Put 2 teaspoons of oil and allow that hot for some time. With 150 grams of rice cooker 200 ml water 1 Keep to the boiling point of a whistle.

  3. Now 1/4 (one-fourth) teaspoon mustard, ½ teaspoon of gram dal, ½ tsp of urad dal, it scrambled well for 1 minute.

  4. 8-10 changing color brown color of peanut off the skin to fry it well.

  5. Once you should fry everything is fine now 1-2 entering the red pepper and sauce Meet it as well, so it will not burn.

  6. Now put chopped ginger and curry leaves which will bring fragrance to your dish.

  7. When you make from the above process, fry everything well for almost a minute.

  8. Now let's take 1/4 teaspoon turmeric powder, which is going to give the required color of a lemon rice, then mix it well.

  9. So boiled to 150 grams of rice, which you have already boiled and mixed well with the sauce with prepared ingredients and mix well.

  10. Now add 1 ½ spoon of lemon juice to achieve a pinch of lemon taste necessary for the amount of rice.

  11. Once mixed everything well for almost a minute and close your stove.

  12. Separate it in a bowl and garnish it with coriander leaves and now taste it self-made lemon rice.


सवाल - मैं नींबू चावल कैसे तैयार कर सकता हूं?

उत्तर - अगर आप खाना पकाने, खाने से थक गए हैं और कुछ नया और सरल कोशिश करना चाहते हैं तो नींबू चावल एक अच्छा विकल्प होगा। यहां मैं उस प्रक्रिया को साझा करूंगा जो आपको किसी भी समय नींबू चावल बनाने में मदद करेगा।

अपने कुकटॉप पर एक पैन रखें चाहे वह गैस होब या गैस स्टोव हो।


  1. 2 चम्मच तेल डालें और कुछ समय के लिए उस गरम होने दें। 150 ग्राम चावल के साथ 200 ml पानी को कुकर में 1 एक सीटी तक उबलने के लिए रख दे

  2. अब 1/4 ( एकचौथाई ) चम्मच सरसों, ½ चम्मच चना दाल का, ½ चम्मच उरद दाल का, इसे 1 मिनट के लिए अच्छी तरह से तले ।

  3. 8-10 मूंगफली को छिलका उतार के ब्राउन रंग में रंग बदलने तक इसे अच्छी तरह से भूने ।

  4. एक बार जब आप सबकुछ ठीक भून जाये तो अब 1-2 पूरे लाल मिर्च डाले और फिर इसे अच्छी तरह से सॉस मिलिए , ताकि यह जल न जाएगा।

  5. अब कटा हुआ अदरक और करी पत्तियों को डाले जो सुगंध को आपके पकवान में चारचांद लाएगा।

  6. जब आप उपरोक्त प्रक्रिया से बनाते है, तो लगभग एक मिनट के लिए सबकुछ अच्छी तरह से भूनें करें।

  7. अब आइए हल्दी पाउडर का 1/4 चम्मच डालें जो एक नींबू चावल के लिए आवश्यक रंग देने जा रहा है, फिर इसे अच्छी तरह मिलाएं।

  8. अब उबले गए 150 ग्राम चावल को जो आपने पहले से उबला के रखा है और इसमें तैयार अवयवों के साथ मिलाये और साथ में अच्छी तरह से सॉस को मिलाए ।

  9. अब चावल की मात्रा के लिए आवश्यक एक चुटकी नींबू का स्वाद को प्राप्त करने के लिए नींबू के रस के 1 ½ चम्मच डालें ।

  10. एक बार सबकुछ लगभग एक मिनट के लिए अच्छी तरह मिलाएं और अपने स्टोव को बंद करें।

  11. इसे एक कटोरे में अलग करें और इसे धनिया पत्तियों के साथ गार्निश करें और अब इसका स्वाद लें स्वयं निर्मित नींबू चावल।

---------------------------------------------------------------------4------------------------------------------------------------------

Question - How long does it take to cook potatoes in a pressure cooker?

Answer - It takes 5-7 minutes to boil 1 Kg. of potatoes, after 2-3 whistles it will boil.

सवाल - प्रेशर कुकर में आलू पकाने में कितना समय लगता है?

उत्तर - 1 किलो उबालने में 5-7 मिनिट का समय लगता है. आलू में 2-3 सीटी आने के बाद उबाल आ जायेगा.

--------------------------------------------------------------------5-------------------------------------------------------------------

Question - How to make 5 kg Rice in 22 Ltr. Pressure Cooker ?

Answer - 5 kg rice will take 4 liters of water on fast gas 1 whistle 20 minutes approx.

सवाल - 22 लीटर में 5 किलो चावल कैसे बनाएं। प्रेशर कुकर ?

उत्तर - 5 किलोग्राम चावल में 4 लीटर पानी तेज गैस पर 1 सीटी 20 मिनट लगभग लगेगा

--------------------------------------------------------------------6-------------------------------------------------------------------

Question - For veg biryani in pressure cooker, after how many whistles in half cooked rice, biryani gets cooked?

Answer - In one whistle

सवाल - प्रेशर कुकर में वेज बिरयानी केलिये आधा पका हुआ चावल में कितने सीटी होने पर बिरयानी पाक जाती हे?

उत्तर - एक सीटी मे

-------------------------------------------------------------------7--------------------------------------------------------------------

Question - Do steel pressure cookers come from the inside of the steel cooker as well?

Answer - Prestige Hawkins etc. mainly comes from which pressure cookers come.

सवाल - क्या स्टील के प्रेशर कुकर अंदर की साइड से भी स्टील के कुकर हे आते है ?

उत्तर - प्रेस्टीज हव्किंस आदि मुख्य रूपसे आते हैं जिनमे से के प्रेशर कुकर आते है

-------------------------------------------------------------------8--------------------------------------------------------------------

Question - Why does the the pressure cooker at the bottom get wheatish while cooking dal?

Answer - Due to low water, dal burn in bottom.

सवाल - दाल पकाते समय प्रेशर कुकर के तले में गेहुँआ क्यों हो जाता है?

उत्तर - पानी कम होने से दाल तली में जल जाती है।

-------------------------------------------------------------------9-------------------------------------------------------------------

Question - Can we boil dal in plastic instead of pressure cooker?

Answer - No, not much, do not even try to do so, otherwise you will have to eat plastic pulses.

सवाल - क्या हम प्रेशर कुकर की जगहा प्लास्टिक में दाल उबल सकते हैं?

उत्तर - नहीं, बिलकुल नहीं, ऐसा करने की कोसिस भी नही करना , वरना प्लास्टिक की दाल खानी पड़ेगी

--------------------------------------------------------------------10-------------------------------------------------------------------

Question - Steam comes out of the handle in a Futura pressure cooker?

Answer - No, such a cooker has not yet been made whose seat comes from the handle.

सवाल - फ्यूचुरा प्रेशर कुकर में हैंडल से भाप निकलती है?

उत्तर - नहीं, अभी तक ऐसा कुकर नहीं बना है जिसकी सीते हैंडल से आती हो.

-----------------------------------------------------------------------11----------------------------------------------------------------

Question -

Answer -

सवाल -

उत्तर -


Click Here - हिंदी कहानियाँ

---------------------------------------------------------------------------------------------------------------------------------------

Mobiles

Question - What is the average price at which I can get a second hand Samsung Galaxy Note 10 Plus mobile phone?

Answer -

सवाल - वह औसत कीमत क्या है जिस पर मुझे सेकेंड हैंड सैमसंग गैलेक्सी नोट 10 प्लस मोबाइल फोन मिल सकता है?

उत्तर -

---------------------------------------------------------------------------------------------------------------------------------------

Question - Will there be less clarity if tempered glass is applied on samsung m30s mobile phone?

Answer -

सवाल - क्या सैमसंग m30s मोबाइल फोन पर टेम्पर्ड ग्लास लगाने पर स्पष्टता कम होगी?

उत्तर -

---------------------------------------------------------------------------------------------------------------------------------------

Question - Which new mobiles from Samsung and Xiaomi can connect the printer and print with the help of the printer?

Answer -

सवाल - सैमसंग और श्याओमी के कौन से नए मोबाइल में प्रिंटर को जोड़ा जा सकता है और प्रिंटर की मदद से प्रिंट निकाला जा सकता है?

उत्तर -

---------------------------------------------------------------------------------------------------------------------------------------

Question - How do I connect my Samsung Galaxy A8 mobile phone with Miroir M20 Mini Projector?

Answer -

सवाल - मैं अपने सैमसंग गैलेक्सी ए8 मोबाइल फोन को मिरोइर एम20 मिनी प्रोजेक्टर से कैसे जोड़ सकता हूं?

उत्तर -

---------------------------------------------------------------------------------------------------------------------------------------

Question - Samsung Galaxy M30s 6+128GB storage mobile phone has magnetic compass or not?

Answer -

सवाल - सैमसंग गैलेक्सी एम30एस 6+128जीबी स्टोरेज वाले मोबाइल फोन में मैग्नेटिक कंपास है या नहीं?

उत्तर -

---------------------------------------------------------------------------------------------------------------------------------------

Question - How much does it cost to replace the full board camera of a Samsung Galaxy A50 mobile phone?

Answer -

सवाल - सैमसंग गैलेक्सी ए50 मोबाइल फोन का फुल बोर्ड कैमरा बदलने में कितना खर्चा आता है?

उत्तर -

---------------------------------------------------------------------------------------------------------------------------------------

Question - Which phone master app is good for samsung galaxy m30 mobile phone?

Answer -

सवाल - सैमसंग गैलेक्सी एम30 मोबाइल फोन के लिए कौन सा फोन मास्टर ऐप अच्छा है?

उत्तर -

---------------------------------------------------------------------------------------------------------------------------------------

Question - My question is I want the photo editor which looks like samsung mobile gallery or it's theme is it the best editor?

Answer -

सवाल - मेरा सवाल यह है कि मुझे वह फोटो संपादक चाहिए जो सैमसंग मोबाइल गैलरी की तरह दिखता है या इसकी थीम है, यह सबसे अच्छा संपादक है?

उत्तर -

---------------------------------------------------------------------------------------------------------------------------------------

Question - Does Samsung galaxy A6 mobile phone reset what's app automatically when the storage is full?

Answer -

सवाल - क्या सैमसंग गैलेक्सी a6 मोबाइल फोन स्टोरेज भर जाने पर व्हाट्सएप को अपने आप रीसेट कर देता है?

उत्तर -

---------------------------------------------------------------------------------------------------------------------------------------

Question - Can I use my Samsung J2 mobile phone to work as a delivery boy in Zomato?

Answer - Yes why not, Samsung J2 Mobile phone backup is very good but this is old fashioned. So it internet will be run slow and buffering trouble because of LOW RAM.

सवाल - क्या मैं जोमैटो में डिलीवरी बॉय के रूप में काम करने के लिए अपने सैमसंग जे2 मोबाइल फोन का उपयोग कर सकता हूं?

उत्तर - हाँ क्यों नहीं, सैमसंग J2 मोबाइल फोन का बैकअप बहुत अच्छा है लेकिन यह पुराने जमाने का है। तो यह इंटरनेट धीमी गति से चलेगा और कम रैम की वजह से बफरिंग की समस्या होगी।

---------------------------------------------------------------------------------------------------------------------------------------

Question -

Answer -

सवाल -

उत्तर -

---------------------------------------------------------------------------------------------------------------------------------------

Question -

Answer -

सवाल -

उत्तर -


Click Here - हिंदी कहानियाँ

---------------------------------------------------------------------------------------------------------------------------------------

Electric Motor Cars

Question - What is the truth of Electric Based Motor Car ?

Answer - Electric car is a completely safe, environment-friendly and fuel-saving car. There are many benefits that come with electric car without the downsides.

Electric cars are a much more ideal way of driving the law abiding and eco-friendly individual. Why? Because they eliminate the need for gasoline and the immense harm that it causes. In addition, you maintain a more healthy environment with an electric car.

The truth of an electric based motor car is the car is a very new and has many different types of benefits. The electric car can be a practical decision for those who want to only use electricity for the car and not the electricity for their home.

There is a cultural and technological movement called the Transition to Electric (TE) Car. Tesla is a company at the forefront of this movement. The Tesla models from A to X are sleek and able to conveniently provide the comfort of driving and performance in a vehicle

सवाल - क्या है इलेक्ट्रिक बेस्ड मोटर कार का सच?

उत्तर - इलेक्ट्रिक कार पूरी तरह से सुरक्षित, पर्यावरण के अनुकूल और ईंधन बचाने वाली कार है। ऐसे कई फायदे हैं जो बिना किसी नुकसान के इलेक्ट्रिक कार के साथ आते हैं।

इलेक्ट्रिक कारें कानून का पालन करने वाले और पर्यावरण के अनुकूल व्यक्ति को चलाने का एक आदर्श तरीका हैं। क्यों? क्योंकि वे गैसोलीन की आवश्यकता और इससे होने वाले अत्यधिक नुकसान को समाप्त करते हैं। इसके अलावा, आप इलेक्ट्रिक कार के साथ अधिक स्वस्थ वातावरण बनाए रखते हैं।

इलेक्ट्रिक आधारित मोटर कार की सच्चाई यह है कि कार बहुत नई है और इसके कई अलग-अलग प्रकार के लाभ हैं। इलेक्ट्रिक कार उन लोगों के लिए एक व्यावहारिक निर्णय हो सकती है जो केवल कार के लिए बिजली का उपयोग करना चाहते हैं, न कि अपने घर के लिए बिजली का।

एक सांस्कृतिक और तकनीकी आंदोलन है जिसे ट्रांज़िशन टू इलेक्ट्रिक (टीई) कार कहा जाता है। टेस्ला इस आंदोलन में सबसे आगे रहने वाली कंपनी है। ए से एक्स तक टेस्ला मॉडल चिकना हैं और वाहन में ड्राइविंग और प्रदर्शन की सुविधा प्रदान करने में सक्षम हैं।

---------------------------------------------------------------------------------------------------------------------------------------

Question -

Answer -

सवाल -

उत्तर -

---------------------------------------------------------------------------------------------------------------------------------------

Crypto, DeFi, NFT, and Virtual Lands

क्रिप्टो, डेफी, एनएफटी, और वर्चुअल लैंड्स

Question - What is Crypto, DeFi, NFT, and Virtual Lands ?

Answer - Crypto, DeFi, NFT, and Virtual Lands

Most developers work in top tech companies and even startups, so they can easily understand technology like crypto and stocks.

As a result, most developers will be able to produce anything involving crypto, NFTs and other trending technologies.

You must also know that there is a lot of discussion about NFT, DeFi and Virtual Land. And don't forget about the new Metaverse innovations.

You can also learn blockchain technology for this purpose. And develop a service that most people need.

As a result, if you are a developer, you have an advantage to learn about new technology and earn money from it.

सवाल - क्या है क्रिप्टो, डेफी, एनएफटी, और वर्चुअल लैंड्स ?

उत्तर - क्रिप्टो, डेफी, एनएफटी, और वर्चुअल लैंड्स

अधिकांश डेवलपर शीर्ष तकनीकी कंपनियों और यहां तक कि स्टार्टअप में भी काम करते हैं, इसलिए वे क्रिप्टो और स्टॉक जैसी तकनीक को आसानी से समझ सकते हैं।

नतीजतन, अधिकांश डेवलपर्स क्रिप्टो, एनएफटी और अन्य ट्रेंडिंग तकनीकों से जुड़ी किसी भी चीज का उत्पादन करने में सक्षम होंगे।

आप यह भी जानते होंगे कि एनएफटी, डेफी और वर्चुअल लैंड को लेकर काफी चर्चा है। और नए मेटावर्स इनोवेशन के बारे में मत भूलना।

आप इस उद्देश्य के लिए ब्लॉकचेन तकनीक भी सीख सकते हैं। और ऐसी सेवा विकसित करें जिसकी अधिकांश लोगों को आवश्यकता हो।

नतीजतन, यदि आप एक डेवलपर हैं, तो आपको नई तकनीक के बारे में सीखने और उससे पैसे कमाने का एक फायदा है।

---------------------------------------------------------------------------------------------------------------------------------------

Question -

Answer -

सवाल -

उत्तर -

---------------------------------------------------------------------------------------------------------------------------------------

Question -

Answer -

सवाल -

उत्तर -

---------------------------------------------------------------------------------------------------------------------------------------

Question -

Answer -

सवाल -

उत्तर -

---------------------------------------------------------------------------------------------------------------------------------------

Question -

Answer -

सवाल -

उत्तर -

---------------------------------------------------------------------------------------------------------------------------------------

Question -

Answer -

सवाल -

उत्तर -

---------------------------------------------------------------------------------------------------------------------------------------

Question -

Answer -

सवाल -

उत्तर -

---------------------------------------------------------------------------------------------------------------------------------------

Question -

Answer -

सवाल -

उत्तर -

---------------------------------------------------------------------------------------------------------------------------------------

Question -

Answer -

सवाल -

उत्तर -

---------------------------------------------------------------------------------------------------------------------------------------

Question -

Answer -

सवाल -

उत्तर -

---------------------------------------------------------------------------------------------------------------------------------------

Question -

Answer -

सवाल -

उत्तर -

---------------------------------------------------------------------------------------------------------------------------------------

Question -

Answer -

सवाल -

उत्तर -

---------------------------------------------------------------------------------------------------------------------------------------

Question -

Answer -

सवाल -

उत्तर -

---------------------------------------------------------------------------------------------------------------------------------------

Question -

Answer -

सवाल -

उत्तर -

---------------------------------------------------------------------------------------------------------------------------------------

Question -

Answer -

सवाल -

उत्तर -

---------------------------------------------------------------------------------------------------------------------------------------

Question -

Answer -

सवाल -

उत्तर -

---------------------------------------------------------------------------------------------------------------------------------------

Question -

Answer -

सवाल -

उत्तर -

---------------------------------------------------------------------------------------------------------------------------------------

Question -

Answer -

सवाल -

उत्तर -

---------------------------------------------------------------------------------------------------------------------------------------

Question -

Answer -

सवाल -

उत्तर -

---------------------------------------------------------------------------------------------------------------------------------------

Question -

Answer -

सवाल -

उत्तर -

---------------------------------------------------------------------------------------------------------------------------------------

Question -

Answer -

सवाल -

उत्तर -

---------------------------------------------------------------------------------------------------------------------------------------

Question -

Answer -

सवाल -

उत्तर -

---------------------------------------------------------------------------------------------------------------------------------------

Question -

Answer -

सवाल -

उत्तर -

---------------------------------------------------------------------------------------------------------------------------------------

Question -

Answer -

सवाल -

उत्तर -

---------------------------------------------------------------------------------------------------------------------------------------

Question -

Answer -

सवाल -

उत्तर -

---------------------------------------------------------------------------------------------------------------------------------------

Question -

Answer -

सवाल -

उत्तर -

---------------------------------------------------------------------------------------------------------------------------------------

Question -

Answer -

सवाल -

उत्तर -

---------------------------------------------------------------------------------------------------------------------------------------

Question -

Answer -

सवाल -

उत्तर -

---------------------------------------------------------------------------------------------------------------------------------------

Question -

Answer -

सवाल -

उत्तर -

---------------------------------------------------------------------------------------------------------------------------------------

Question -

Answer -

सवाल -

उत्तर -

---------------------------------------------------------------------------------------------------------------------------------------

Question -

Answer -

सवाल -

उत्तर -

---------------------------------------------------------------------------------------------------------------------------------------

Question -

Answer -

सवाल -

उत्तर -

---------------------------------------------------------------------------------------------------------------------------------------

Question -

Answer -

सवाल -

उत्तर -

---------------------------------------------------------------------------------------------------------------------------------------

Question -

Answer -

सवाल -

उत्तर -

---------------------------------------------------------------------------------------------------------------------------------------

Question -

Answer -

सवाल -

उत्तर -

---------------------------------------------------------------------------------------------------------------------------------------

Question -

Answer -

सवाल -

उत्तर -

---------------------------------------------------------------------------------------------------------------------------------------

Question -

Answer -

सवाल -

उत्तर -

---------------------------------------------------------------------------------------------------------------------------------------

Question -

Answer -

सवाल -

उत्तर -

---------------------------------------------------------------------------------------------------------------------------------------

Question -

Answer -

सवाल -

उत्तर -

---------------------------------------------------------------------------------------------------------------------------------------

Question -

Answer -

सवाल -

उत्तर -

---------------------------------------------------------------------------------------------------------------------------------------

Question -

Answer -

सवाल -

उत्तर -

---------------------------------------------------------------------------------------------------------------------------------------

Question -

Answer -

सवाल -

उत्तर -

---------------------------------------------------------------------------------------------------------------------------------------

Question -

Answer -

सवाल -

उत्तर -

---------------------------------------------------------------------------------------------------------------------------------------

Question -

Answer -

सवाल -

उत्तर -

---------------------------------------------------------------------------------------------------------------------------------------

Question -

Answer -

सवाल -

उत्तर -

---------------------------------------------------------------------------------------------------------------------------------------

Question -

Answer -

सवाल -

उत्तर -

---------------------------------------------------------------------------------------------------------------------------------------

Question -

Answer -

सवाल -

उत्तर -

---------------------------------------------------------------------------------------------------------------------------------------

Question -

Answer -

सवाल -

उत्तर -

---------------------------------------------------------------------------------------------------------------------------------------

Question -

Answer -

सवाल -

उत्तर -

---------------------------------------------------------------------------------------------------------------------------------------

Question -

Answer -

सवाल -

उत्तर -

---------------------------------------------------------------------------------------------------------------------------------------

Question -

Answer -

सवाल -

उत्तर -

---------------------------------------------------------------------------------------------------------------------------------------

Question -

Answer -

सवाल -

उत्तर -

---------------------------------------------------------------------------------------------------------------------------------------

Question -

Answer -

सवाल -

उत्तर -

---------------------------------------------------------------------------------------------------------------------------------------

Question -

Answer -

सवाल -

उत्तर -

---------------------------------------------------------------------------------------------------------------------------------------

Question -

Answer -

सवाल -

उत्तर -

---------------------------------------------------------------------------------------------------------------------------------------

Question -

Answer -

सवाल -

उत्तर -

---------------------------------------------------------------------------------------------------------------------------------------

Question -

Answer -

सवाल -

उत्तर -

---------------------------------------------------------------------------------------------------------------------------------------

Question -

Answer -

सवाल -

उत्तर -

---------------------------------------------------------------------------------------------------------------------------------------

Question -

Answer -

सवाल -

उत्तर -

---------------------------------------------------------------------------------------------------------------------------------------

Question -

Answer -

सवाल -

उत्तर -

---------------------------------------------------------------------------------------------------------------------------------------

Question -

Answer -

सवाल -

उत्तर -

---------------------------------------------------------------------------------------------------------------------------------------

Question -

Answer -

सवाल -

उत्तर -

---------------------------------------------------------------------------------------------------------------------------------------

Question -

Answer -

सवाल -

उत्तर -

---------------------------------------------------------------------------------------------------------------------------------------

Question -

Answer -

सवाल -

उत्तर -

---------------------------------------------------------------------------------------------------------------------------------------

Question -

Answer -

सवाल -

उत्तर -

---------------------------------------------------------------------------------------------------------------------------------------

Question -

Answer -

सवाल -

उत्तर -

---------------------------------------------------------------------------------------------------------------------------------------

Question -

Answer -

सवाल -

उत्तर -

---------------------------------------------------------------------------------------------------------------------------------------

Question -

Answer -

सवाल -

उत्तर -

---------------------------------------------------------------------------------------------------------------------------------------


Click Here - हिंदी कहानियाँ

ELECTRIC CARS विद्युत कारें

पिछले कुछ वर्षों में आप देखेंगे कि इलेक्ट्रिक कारों की मांग में उल्लेखनीय वृद्धि हुई है। वास्तव में, अधिक से अधिक लोग अब अपनी पुरानी गैसोलीन से चलने वाली कार और गो इलेक्ट्रिक को बेचने पर विचार कर रहे हैं। और, ऐसे लोग हैं जो अब इलेक्ट्रिक कारों के मालिक और ड्राइवर हैं।

सबसे पहले, आपको यह विचार करना होगा कि पारंपरिक कारों की तुलना में इलेक्ट्रिक कारें अधिक महंगी हैं। यह धीमी भी है और पारंपरिक गैसोलीन से चलने वाली कारों की तुलना में इलेक्ट्रिक कारें आकार में भी छोटी होती हैं। और, हालांकि यह मामला है, फिर भी बहुत से लोग गैसोलीन से चलने वाली कारों की तुलना में इलेक्ट्रिक कारों को पसंद करते हैं।

हालांकि इलेक्ट्रिक कारों को बाजार से खरीदना अधिक महंगा है, लेकिन आप पाएंगे कि लंबे समय में इसे खरीदना काफी सस्ता होगा। यह मूल रूप से इसलिए है क्योंकि इलेक्ट्रिक कारें पूरी तरह से बिजली से चलती हैं। यह गैसोलीन का उपयोग नहीं करता है, जिसका अर्थ है कि आपको कभी भी गैसोलीन स्टेशन पर रुकना नहीं पड़ेगा।

इलेक्ट्रिक कारें आपके पारंपरिक आंतरिक दहन इंजन के बजाय एक इलेक्ट्रिक मोटर द्वारा संचालित होती हैं। इलेक्ट्रिक मोटर को इसकी शक्ति इलेक्ट्रिक कार में स्थापित बैटरियों से मिलती है। हालाँकि आपको बैटरियों को चार्ज करने की ज़रूरत है, आप देखेंगे कि आज की बैटरी सेल तकनीक के साथ, एक डॉलर की कीमत की बिजली आपको अपनी इलेक्ट्रिक कार से सौ मील की दूरी तक पहुँचाने में सक्षम होगी, इससे पहले कि आपको कभी भी बैटरी को फिर से रिचार्ज करने की आवश्यकता हो।

इसलिए, यदि आप प्रतिदिन अपनी कार का उपयोग करते हैं, तो आप अपने मासिक बिजली बिल में आसानी से ३० डॉलर जोड़ सकते हैं, जो कि पेट्रोल में एक सौ डॉलर प्रति माह खर्च करने से कहीं बेहतर है। लंबे समय में, आप देखेंगे कि इलेक्ट्रिक कारें पारंपरिक गैसोलीन से चलने वाली कारों की तुलना में काफी सस्ती हैं।

आपको यह भी ध्यान रखना होगा कि बिजली से चलने वाली कारें कोई नई अवधारणा नहीं हैं। वास्तव में, इस तरह की कारों का आविष्कार पहली कार के विकसित होने के बाद से हुआ था। उपलब्ध बैटरी सेल तकनीक के कारण इस विचार को समाप्त कर दिया गया था। प्रौद्योगिकी की प्रगति के लिए धन्यवाद, अब कारों के लिए बैटरी के माध्यम से बिजली से चलना और इतनी कुशलता से करना संभव है।

ये कारें हल्की सामग्री से बनी हैं, और पारंपरिक कारों की तुलना में काफी छोटी हैं। यह वजन अनुपात के लिए एक अच्छी शक्ति प्राप्त करने का एक शानदार तरीका है, जो कार को तेजी से आगे बढ़ाएगा और अपने पूर्ववर्तियों की तुलना में आगे भी जाएगा। हालाँकि आज मौजूद इलेक्ट्रिक कारें आंतरिक दहन इंजन वाली कारों की तरह तेज़ या शक्तिशाली नहीं हैं, लेकिन यह वह पेशकश करती है जो आज ज्यादातर लोग चाहते हैं, जो कि बड़ी बचत है।

इसके अलावा, इलेक्ट्रिक कारें हानिकारक गैस का उत्सर्जन नहीं करती हैं, जो वातावरण में ग्रीनहाउस गैस और अंततः ग्लोबल वार्मिंग में योगदान करती हैं। आज लोगों की पर्यावरणीय चिंताओं के कारण, इलेक्ट्रिक कारें तेजी से लोकप्रिय हो रही हैं, खासकर उन लोगों के लिए जो पर्यावरण के बारे में चिंतित हैं।

ये कारण अकेले आपको यह निष्कर्ष निकालने के लिए पर्याप्त हैं कि इलेक्ट्रिक कारें निश्चित रूप से ड्राइविंग का भविष्य होंगी। यह तब तक लंबा नहीं होगा जब तक आप यह नहीं देखेंगे कि ज्यादातर लोग इलेक्ट्रिक कार चलाना शुरू कर देंगे।